Free Web Hosting | free host | Free Web Space | BlueHost Review

back     home
Don't Need A Reason

(Beth Orton / Ted Barnes / Ali Friend)

E: ------------------2------------3--------------2
B: ------3-----------2--------------3-----------2
G: ----0------------------------0------0---------
D: --4-----4-------0----------0--------------0--
A: 5---------5---4--------0-2--------------4----
E: ------------5--------------------------5-------

E: 2------------3---------
B: 3-0---0-----3---------
G: --2-2-2-----0---0h2-0
D: --------4-2-0---------
A: -------------2---------
E: -------------3---------

Chords

Follow D A Bm A - C G - Bm A pattern throughout


Have you ever seen a sign
That upon a right time
There were angels
We all lose track cross upon our backs feel the weight of wings
Why they fall is hard tell
But some things you can buy yourself

Yeah we only hurt the ones we love
While I don't need a reason
We only give what we think we deserve
Like something to believe in

I think I've seen a sign
But its a very fine line
If you want it all
You don't lose track
God upon our back
There's no weight of wings
When they shine is hard to say
But some things never fade away

And we only hurt the ones we love
While we don't need a reason
Only give what we think we deserve
Like something to believe in

So I've been calling angels down to Earth
And I don't need a reason
Calling angels down to Earth
Because I believe we need them

Yeah we only hurt the ones we love
While we don't need a reason
Gonna get all that you deserve
And all that you believe in
Do you believe in
Do you need them
If you need them
Do you know
Do you need them
If you need them
Do you know

Versions

Original (5:04) Trailer Park 1996